SalonsMuzika.lv Ziemassvētku dziesmas/melodijas - Akordi - Ģitāristu forums Gitaristiem.lv

Pālekt uz saturu


Bilde

Ziemassvētku dziesmas/melodijas


  • Please log in to reply
18 atbildes uz šo tēmu

#1 vilksvilks

vilksvilks

    Ģitāras griezējs

  • Members
  • 192 raksti

Pievienots 06 November 2012 - 03:52 PM

Varbūt, varam padalīties ar interesantām aranžijām par tēmu Ziemassvētki?

Te mazliet roķīgā stilā "Klusa nakts, svēta nakts":

http://www.guitarnic...-tablature.html
  • 0
Ievietotais attēls

#2 qwe999

qwe999

    Ģitāras griezējs

  • Members
  • 246 raksti
  • LocationRīga

Pievienots 06 November 2012 - 08:02 PM

Varbūt kādam ir notis vai tabi Jingle bell rock? BAIGI vajag! Vai varbūt kāds zin pareizās vietas kur to atrast.
Apmēram šādam aranžējumam

  • 1
Nedari šodien to, ko vari atlikt uz rītu!

#3 keidii

keidii

    Ģitāras griezējs

  • Members
  • 186 raksti
  • LocationRīga

Pievienots 07 November 2012 - 04:53 PM

No tās pašās vietnes http://www.guitarnic...ngle_bells.html
  • 0
Nekas, arī kaķēnu acis neatveras uzreiz!

#4 Guli

Guli

    Spēlmanis

  • Members
  • 60 raksti
  • LocationRīga

Pievienots 07 November 2012 - 11:08 PM

Es pagājušajos Ziemassvētkos pie eglītes spēlēju šito: (instrumentālo variantu)

  • 0
www.gaisostonos.lv

#5 Aivis

Aivis

    Advanced Member

  • Members
  • PipPipPip
  • 34 raksti

Pievienots 08 November 2012 - 08:31 PM


Viss kā vajag :D
  • 0

#6 mestrs

mestrs

    Advanced Member

  • Members
  • PipPipPip
  • 36 raksti

Pievienots 10 November 2012 - 02:19 PM

arr. mark hanson



notis ir internetā atrodamas
  • 0

Brīnišķas skaņas var izvilkt tikai skaista dvēsle  (A.Segovija)


#7 vilksvilks

vilksvilks

    Ģitāras griezējs

  • Members
  • 192 raksti

Pievienots 21 November 2012 - 02:25 PM

arr. Marcel Robinson

Klusa nakts, svēta nakts

G
|-------0-----|-------------|-------0-----|-------------|
|-3-------3---|-0-----------|-3-------3---|-0-----------|
|-----0-------|-----0-------|-----0-------|-----0-------|
|---0-------0-|---0---0---0-|---0-------0-|---0---0---0-|
|-------------|-------------|-------------|-------------|
|-3-----------|-3-------3---|-3-----------|-3-------3---|

D7__________________________G_____________G/B

|-5-------5---|-2-----------|-3-------3---|-------------|
|-------------|-----1-------|-------------|-3-----------|
|-----5-----5-|---2---2---2-|-----0-------|-----0-------|
|---4---4-----|-0-------0---|---0---0---0-|---0---0---3-|
|-5-----------|-------------|---------0---|-2-------2---|
|-------------|-------------|-3-----------|-------------|

C____________________________G

|-0-------0---|-3-----2-0---|-------0-----|-------------|
|-----1-------|-----1-------|-3-------3---|-0-----------|
|---0---0---0-|---0-------0-|-----0-------|-----0-------|
|-------------|-------------|---0-------0-|---0---0---3-|
|-3-----------|-3-----------|-------------|-------------|
|-------------|-------------|-3-----------|-3-------3---|

C____________________________G

|-0-------0---|-3-----2-0---|-------0-----|-------------|
|-----1-------|-----1-------|-3-------3---|-0-----------|
|---0---0---0-|---0-------0-|-----0-------|-----0-------|
|-------------|-------------|---0-------0-|---0---0---0-|
|-3-----------|-3-----------|-------------|-------------|
|-------------|-------------|-3-----------|-3-------3---|

D7___________________________G

|-5-------5---|-8-------5---|-3-----------|-7-----------|
|-------------|---7-------7-|-0-----0---0-|---0---0---0-|
|-----5-----5-|-------------|-----0---0---|-0---0---0---|
|---4---4-----|-0-----0-----|-------------|-------------|
|-5-----------|-------------|-------------|-------------|
|-------------|-------------|-3-----------|-------------|

__________________________________________| 1., 2. | 3.|
G/D__G/B__G___D/F#__________G________C____G_____________G
|-3-----------|-------------|-------------|-------------|---
|-----3---0---|-3-----1-----|-------------|-------------|---
|---0---0---0-|---2------2--|-0-----------|-0-------0---|-0-
|-0-----------|-----0-------|-----0-----2-|-----0-----0-|-0-
|-----2-------|-------------|---2---2-3---|---2---2-----|-2-
|---------3---|-2-----------|-3-----------|-3-----------|-3-

  • 0
Ievietotais attēls

#8 keidii

keidii

    Ģitāras griezējs

  • Members
  • 186 raksti
  • LocationRīga

Pievienots 21 November 2012 - 02:27 PM

arr. Marcel Robinson

Klusa nakts, svēta nakts

G
|-------0-----|-------------|-------0-----|-------------|
|-3-------3---|-0-----------|-3-------3---|-0-----------|
|-----0-------|-----0-------|-----0-------|-----0-------|
|---0-------0-|---0---0---0-|---0-------0-|---0---0---0-|
|-------------|-------------|-------------|-------------|
|-3-----------|-3-------3---|-3-----------|-3-------3---|

D7 G G/B
|-5-------5---|-2-----------|-3-------3---|-------------|
|-------------|-----1-------|-------------|-3-----------|
|-----5-----5-|---2---2---2-|-----0-------|-----0-------|
|---4---4-----|-0-------0---|---0---0---0-|---0---0---3-|
|-5-----------|-------------|---------0---|-2-------2---|
|-------------|-------------|-3-----------|-------------|

C G
|-0-------0---|-3-----2-0---|-------0-----|-------------|
|-----1-------|-----1-------|-3-------3---|-0-----------|
|---0---0---0-|---0-------0-|-----0-------|-----0-------|
|-------------|-------------|---0-------0-|---0---0---3-|
|-3-----------|-3-----------|-------------|-------------|
|-------------|-------------|-3-----------|-3-------3---|


C G
|-0-------0---|-3-----2-0---|-------0-----|-------------|
|-----1-------|-----1-------|-3-------3---|-0-----------|
|---0---0---0-|---0-------0-|-----0-------|-----0-------|
|-------------|-------------|---0-------0-|---0---0---0-|
|-3-----------|-3-----------|-------------|-------------|
|-------------|-------------|-3-----------|-3-------3---|


D7 G
|-5-------5---|-8-------5---|-3-----------|-7-----------|
|-------------|---7-------7-|-0-----0---0-|---0---0---0-|
|-----5-----5-|-------------|-----0---0---|-0---0---0---|
|---4---4-----|-0-----0-----|-------------|-------------|
|-5-----------|-------------|-------------|-------------|
|-------------|-------------|-3-----------|-------------|
_____________ ___
| 1., 2. | 3.|
G/D G/B G D/F# G C G G
|-3-----------|-------------|-------------|-------------|---
|-----3---0---|-3-----1-----|-------------|-------------|---
|---0---0---0-|---2------2--|-0-----------|-0-------0---|-0-
|-0-----------|-----0-------|-----0-----2-|-----0-----0-|-0-
|-----2-------|-------------|---2---2-3---|---2---2-----|-2-
|---------3---|-2-----------|-3-----------|-3-----------|-3-


Saki, ka šitais skaistāk skan?
  • 0
Nekas, arī kaķēnu acis neatveras uzreiz!

#9 vilksvilks

vilksvilks

    Ģitāras griezējs

  • Members
  • 192 raksti

Pievienots 21 November 2012 - 02:51 PM

Kāpēc "skaistāk"? Savādāk!
  • 0
Ievietotais attēls

#10 qwe999

qwe999

    Ģitāras griezējs

  • Members
  • 246 raksti
  • LocationRīga

Pievienots 21 November 2012 - 02:54 PM

reku notiņas arī biku citai versijai ;)

Piesaistītie faili(s)


  • 0
Nedari šodien to, ko vari atlikt uz rītu!

#11 vilksvilks

vilksvilks

    Ģitāras griezējs

  • Members
  • 192 raksti

Pievienots 21 November 2012 - 03:30 PM

reku notiņas arī biku citai versijai ;)

Labs! Dikti līdzīgs, toties ar smuku iesākumu un nobeigumu, tipa, lai nav ar pirmo stīgas trinkšķi arī mute jāver vaļā.
  • 0
Ievietotais attēls

#12 Odijs

Odijs

    Ģitāras griezējs

  • Members
  • 263 raksti
  • LocationRīga

Pievienots 10 December 2012 - 03:30 PM

Mežā dzima eglīte.

šitā skan: http://pro-gitaru.ru/?p=1488

Piesaistītie faili(s)


  • 1
..un starp citu - Kurts ir dzīvs

#13 keidii

keidii

    Ģitāras griezējs

  • Members
  • 186 raksti
  • LocationRīga

Pievienots 10 December 2012 - 03:37 PM

Mežā dzima eglīte.

šitā skan: http://pro-gitaru.ru/?p=1488


Interesanti, biš paķēra, jāiet izdrukāt pdf`s. :>
  • 0
Nekas, arī kaķēnu acis neatveras uzreiz!

#14 qwe999

qwe999

    Ģitāras griezējs

  • Members
  • 246 raksti
  • LocationRīga

Pievienots 10 December 2012 - 07:24 PM

Mežā dzima eglīte.

Nav slikti, bet man tādam džeziņam basa līniju prasās konkrētāku
Man šāds variants patīk :)
http://www.youtube.com/watch?v=zbBbRvXzsL0

šis arī nav slikts, tikai izpildījums ne visai
http://www.youtube.com/watch?v=0mNY2CScY0E
  • 0
Nedari šodien to, ko vari atlikt uz rītu!

#15 TrakaVobla

TrakaVobla

    Biedrs

  • Members
  • PipPip
  • 14 raksti

Pievienots 11 December 2012 - 12:35 AM

Divas vēl nepabeigtas aranžijas... Šodien ātri ierakstīju ar diktofonu, lai apmēram dzirdētu no malas pēc kā skan...

Piesaistītie faili(s)


  • 1

#16 mestrs

mestrs

    Advanced Member

  • Members
  • PipPipPip
  • 36 raksti

Pievienots 11 December 2012 - 01:47 PM

Tommy Emmanuel un Jingle Bells




http://www.failiem.lv/u/eaiqrrw
  • 1

Brīnišķas skaņas var izvilkt tikai skaista dvēsle  (A.Segovija)


#17 vilksvilks

vilksvilks

    Ģitāras griezējs

  • Members
  • 192 raksti

Pievienots 11 December 2012 - 11:31 PM

Nav slikti, bet man tādam džeziņam basa līniju prasās konkrētāku
Man šāds variants patīk :)


šis arī nav slikts, tikai izpildījums ne visai


Notiņas esi aizmirsis pielikt :angry:
  • 0
Ievietotais attēls

#18 vilksvilks

vilksvilks

    Ģitāras griezējs

  • Members
  • 192 raksti

Pievienots 19 December 2012 - 10:34 AM

Pievienotais fails  В лесу родилась ёлочка.pdf   122.38K   13 Lejupielādēto skaits
  • 0
Ievietotais attēls

#19 qwe999

qwe999

    Ģitāras griezējs

  • Members
  • 246 raksti
  • LocationRīga

Pievienots 19 December 2012 - 03:44 PM

Pievienotais fails  В лесу родилась ёлочка.pdf   122.38K   13 Lejupielādēto skaits

eu, šitais ir labais!!! nebiju tādu variantu spēlējis :rolleyes:
  • 0
Nedari šodien to, ko vari atlikt uz rītu!




0 Lietotāji(s) lasa šo tēmu

0 biedri(s), 0 viesi(s), 0 anonīmi(s) lietotāji(s)

gandrs.lv