Pālekt uz saturu


Bilde

Izskaidrojat teoriju āmuram


  • Please log in to reply
4 atbildes uz šo tēmu

#1 dude

dude

    Spēlmanis

  • Members
  • 61 raksti

Pievienots 26 June 2017 - 10:51 PM

Tatad trennina pec meginu sarakstit kadu skandarbu uz gitaras un sanak nemsanas ar teoriju. meginu ieklauties konkreta skankarta ka tam laikam vajadzetu but. bet tad nak prata tadas dziesmas ka Muse - mk ultra , royal blood - figure it out, Muse - panic station.. sajos skandarbos ir riffi kuros iet no vienas nots pa pustoni uz leju gara virkne , piemeram,




E|------------------------------------------------------------------|
B|------------------------------------------------------------------|
G|------------------------------------------------------------------|
D|------------------------------------------------------------------|
A|------------------------------------------------------------------|
D|-12-12--12--12\----12-12--12--11\----10-10--10--10\----9-9--9--9\-|

E|--------------------------------------------------------------------------|
B|--------------------------------------------------------------------------|
G|--------------------------------------------------------------------------|
D|--------------------------------------------------------------------------|
A|--------------------------------------------------------------------------|
D|-8-8--8--8\----7-7--7--7\----7-7--7--7\----7-7--7----7\-------------------| x2

E|-----------------|
B|-----------------|
G|-----------------|
D|-----------------|
A|---------------5-|
D|-0-0-3-0-5-7-0---|

ja dziesma ir D minora. tad ka var pielaut ka tiek speleta Db un B nots. ir kads kas velas paskaidrot atkapes no d minora dziesma?
  • 0

#2 qwe999

qwe999

    Ģitāras griezējs

  • Members
  • 269 raksti
  • LocationRīga

Pievienots 27 June 2017 - 08:20 PM

Spēlēt vari ko gribi un kā gribi. Nav obligāti jāaprobežojas ar minora vai mažora notīm. Vai tas vienmēr patiks arī citiem, tas ir cits jautājums.


  • 1
Nedari šodien to, ko vari atlikt uz rītu!

#3 dude

dude

    Spēlmanis

  • Members
  • 61 raksti

Pievienots 27 June 2017 - 09:38 PM

tad nosu pieraksta tas ir tas pats kas takti pieraksta kadu bemolu vai diazu grib un tad tas strada uz visu takti, pareizi?
  • 0

#4 qwe999

qwe999

    Ģitāras griezējs

  • Members
  • 269 raksti
  • LocationRīga

Pievienots 28 June 2017 - 10:59 AM

Varbūt šis noderēs

 

https://en.wikipedia...i/Scale_(music)

https://en.wikipedia...ki/Mode_(music)

https://en.wikipedia...cales_and_modes

utt.

 

arī 

https://en.wikipedia.org/wiki/Makam

https://en.wikipedia.org/wiki/Pathet

utt.

.

 

! Ne visas toņkārtas iekļaujas "standarta" 12 toņu equal temperament  Mūzikas"standarti" ir visai nosacīti un ja tava fantāzija nespēj iekļauties šajos rāmjos, tad ir visas iespējas pārkāpt šīs robežas

 


  • 0
Nedari šodien to, ko vari atlikt uz rītu!

#5 fupos

fupos

    Vietēja mēroga zvaigzne

  • Members
  • 572 raksti
  • LocationRīga

Pievienots 30 June 2017 - 06:36 AM

Sveiks!

Neesmu pētījis to dziesmu, bet Tevis norādītās notis ļoti labi iekļaujas teorijā.

Ja re minora gammā bāzētai dziesmai parādās Db, tas var būt skaidrojams ar melodiskā vai harmoniskā minora lietojumu skaņdarbā.

https://musictheoryo...-melodic-minor/

Un B (nevis Bb) re minoram piedod dorisko skanējumu, to ļoti plaši izmanto minora akordu apspēlēšanai modernajā mūzikā.

https://en.wikipedia...iki/Dorian_mode

 

Alterācijas (diezi un bemoli) darbosies vienas takts ietvaros (ja vien tie nav pie nošu atslēgas, protams).

 

Es Tev ieteiktu dziedāt līdz visam, ko spēlē uz ģitāras, tad ausis ātrāk pieradīs pie dažādiem skanējumiem.

Galvā tas ar laiku nosēdīsies, un smadzenes sāks šīs lietas uztvert kā normālas.

To teoriju pēc tam var pievilkt klāt visādāko, ja tik labi skan ;)


  • 1
freedom




0 Lietotāji(s) lasa šo tēmu

0 biedri(s), 0 viesi(s), 0 anonīmi(s) lietotāji(s)